ISO-10303-21;
HEADER;
/* Generated by software containing ST-Developer
 * from STEP Tools, Inc. (www.steptools.com) 
 */
/* OPTION: using custom schema-name function */

FILE_DESCRIPTION(
/* description */ (''),
/* implementation_level */ '2;1');

FILE_NAME(
/* name */ 'AGWP 10 Kundenmodell.stp',
/* time_stamp */ '2013-10-16T09:44:28+02:00',
/* author */ (''),
/* organization */ (''),
/* preprocessor_version */ 'ST-DEVELOPER v14',
/* originating_system */ 'SIEMENS PLM Software NX 8.0',
/* authorisation */ '');

FILE_SCHEMA (('AUTOMOTIVE_DESIGN { 1 0 10303 214 3 1 1 1 }'));
ENDSEC;

DATA;
#10=PROPERTY_DEFINITION_REPRESENTATION(#14,#12);
#11=PROPERTY_DEFINITION_REPRESENTATION(#15,#13);
#12=REPRESENTATION('',(#16),#543);
#13=REPRESENTATION('',(#17),#543);
#14=PROPERTY_DEFINITION('pmi validation property','',#21);
#15=PROPERTY_DEFINITION('pmi validation property','',#21);
#16=VALUE_REPRESENTATION_ITEM('number of annotations',COUNT_MEASURE(0.));
#17=VALUE_REPRESENTATION_ITEM('number of views',COUNT_MEASURE(0.));
#18=SHAPE_REPRESENTATION_RELATIONSHIP('None',
'relationship between KCH4348DD3Dr3mx-None and KCH4348DD3Dr3mx-None',#30,
#19);
#19=ADVANCED_BREP_SHAPE_REPRESENTATION('KCH4348DD3Dr3mx-None',(#40),#543);
#20=SHAPE_DEFINITION_REPRESENTATION(#21,#30);
#21=PRODUCT_DEFINITION_SHAPE('','',#22);
#22=PRODUCT_DEFINITION(' ','',#24,#23);
#23=PRODUCT_DEFINITION_CONTEXT('part definition',#29,'design');
#24=PRODUCT_DEFINITION_FORMATION_WITH_SPECIFIED_SOURCE(' ',' ',#26,
 .NOT_KNOWN.);
#25=PRODUCT_RELATED_PRODUCT_CATEGORY('part','',(#26));
#26=PRODUCT('KCH4348DD3Dr3mx','KCH4348DD3Dr3mx',' ',(#27));
#27=PRODUCT_CONTEXT(' ',#29,'mechanical');
#28=APPLICATION_PROTOCOL_DEFINITION('international standard',
'automotive_design',2010,#29);
#29=APPLICATION_CONTEXT(
'core data for automotive mechanical design processes');
#30=SHAPE_REPRESENTATION('KCH4348DD3Dr3mx-None',(#334),#543);
#31=PRESENTATION_LAYER_ASSIGNMENT('1','Layer 1',(#40));
#32=STYLED_ITEM('',(#33),#40);
#33=PRESENTATION_STYLE_ASSIGNMENT((#34));
#34=SURFACE_STYLE_USAGE(.BOTH.,#35);
#35=SURFACE_SIDE_STYLE('',(#36));
#36=SURFACE_STYLE_FILL_AREA(#37);
#37=FILL_AREA_STYLE('',(#38));
#38=FILL_AREA_STYLE_COLOUR('',#39);
#39=COLOUR_RGB('Medium Azure',0.,0.615686274509804,0.850980392156863);
#40=MANIFOLD_SOLID_BREP('',#41);
#41=CLOSED_SHELL('',(#78,#79,#80,#81,#82,#83,#84,#85,#86,#87,#88,#89,#90,
#91,#92,#93));
#42=FACE_BOUND('',#124,.T.);
#43=FACE_BOUND('',#125,.T.);
#44=FACE_BOUND('',#126,.T.);
#45=FACE_BOUND('',#127,.T.);
#46=FACE_BOUND('',#130,.T.);
#47=FACE_BOUND('',#131,.T.);
#48=FACE_BOUND('',#132,.T.);
#49=FACE_BOUND('',#133,.T.);
#50=FACE_BOUND('',#134,.T.);
#51=FACE_BOUND('',#135,.T.);
#52=FACE_BOUND('',#136,.T.);
#53=FACE_BOUND('',#137,.T.);
#54=CYLINDRICAL_SURFACE('',#338,16.);
#55=CYLINDRICAL_SURFACE('',#342,39.);
#56=CYLINDRICAL_SURFACE('',#346,28.);
#57=CYLINDRICAL_SURFACE('',#350,39.);
#58=CYLINDRICAL_SURFACE('',#354,28.);
#59=CYLINDRICAL_SURFACE('',#357,12.5);
#60=CYLINDRICAL_SURFACE('',#360,12.5);
#61=CYLINDRICAL_SURFACE('',#364,16.);
#62=CIRCLE('',#336,16.);
#63=CIRCLE('',#337,16.);
#64=CIRCLE('',#340,39.);
#65=CIRCLE('',#341,39.);
#66=CIRCLE('',#344,28.);
#67=CIRCLE('',#345,28.);
#68=CIRCLE('',#348,39.);
#69=CIRCLE('',#349,39.);
#70=CIRCLE('',#352,28.);
#71=CIRCLE('',#353,28.);
#72=CIRCLE('',#355,12.5);
#73=CIRCLE('',#356,12.5);
#74=CIRCLE('',#358,12.5);
#75=CIRCLE('',#359,12.5);
#76=CIRCLE('',#362,16.);
#77=CIRCLE('',#363,16.);
#78=ADVANCED_FACE('',(#102),#94,.F.);
#79=ADVANCED_FACE('',(#103),#54,.F.);
#80=ADVANCED_FACE('',(#104),#95,.F.);
#81=ADVANCED_FACE('',(#105),#55,.T.);
#82=ADVANCED_FACE('',(#106),#96,.T.);
#83=ADVANCED_FACE('',(#107),#56,.T.);
#84=ADVANCED_FACE('',(#108),#97,.T.);
#85=ADVANCED_FACE('',(#109),#57,.T.);
#86=ADVANCED_FACE('',(#110),#98,.T.);
#87=ADVANCED_FACE('',(#111),#58,.T.);
#88=ADVANCED_FACE('',(#42,#43),#59,.F.);
#89=ADVANCED_FACE('',(#44,#45),#60,.F.);
#90=ADVANCED_FACE('',(#112),#99,.T.);
#91=ADVANCED_FACE('',(#113),#61,.F.);
#92=ADVANCED_FACE('',(#46,#47,#48,#49),#100,.F.);
#93=ADVANCED_FACE('',(#50,#51,#52,#53),#101,.T.);
#94=PLANE('',#335);
#95=PLANE('',#339);
#96=PLANE('',#343);
#97=PLANE('',#347);
#98=PLANE('',#351);
#99=PLANE('',#361);
#100=PLANE('',#365);
#101=PLANE('',#366);
#102=FACE_OUTER_BOUND('',#114,.T.);
#103=FACE_OUTER_BOUND('',#115,.T.);
#104=FACE_OUTER_BOUND('',#116,.T.);
#105=FACE_OUTER_BOUND('',#117,.T.);
#106=FACE_OUTER_BOUND('',#118,.T.);
#107=FACE_OUTER_BOUND('',#119,.T.);
#108=FACE_OUTER_BOUND('',#120,.T.);
#109=FACE_OUTER_BOUND('',#121,.T.);
#110=FACE_OUTER_BOUND('',#122,.T.);
#111=FACE_OUTER_BOUND('',#123,.T.);
#112=FACE_OUTER_BOUND('',#128,.T.);
#113=FACE_OUTER_BOUND('',#129,.T.);
#114=EDGE_LOOP('',(#138,#139,#140,#141));
#115=EDGE_LOOP('',(#142,#143,#144,#145));
#116=EDGE_LOOP('',(#146,#147,#148,#149));
#117=EDGE_LOOP('',(#150,#151,#152,#153));
#118=EDGE_LOOP('',(#154,#155,#156,#157));
#119=EDGE_LOOP('',(#158,#159,#160,#161));
#120=EDGE_LOOP('',(#162,#163,#164,#165));
#121=EDGE_LOOP('',(#166,#167,#168,#169));
#122=EDGE_LOOP('',(#170,#171,#172,#173));
#123=EDGE_LOOP('',(#174,#175,#176,#177));
#124=EDGE_LOOP('',(#178));
#125=EDGE_LOOP('',(#179));
#126=EDGE_LOOP('',(#180));
#127=EDGE_LOOP('',(#181));
#128=EDGE_LOOP('',(#182,#183,#184,#185));
#129=EDGE_LOOP('',(#186,#187,#188,#189));
#130=EDGE_LOOP('',(#190,#191,#192,#193,#194,#195,#196,#197));
#131=EDGE_LOOP('',(#198));
#132=EDGE_LOOP('',(#199));
#133=EDGE_LOOP('',(#200,#201,#202,#203));
#134=EDGE_LOOP('',(#204,#205,#206,#207,#208,#209,#210,#211));
#135=EDGE_LOOP('',(#212));
#136=EDGE_LOOP('',(#213));
#137=EDGE_LOOP('',(#214,#215,#216,#217));
#138=ORIENTED_EDGE('',*,*,#246,.T.);
#139=ORIENTED_EDGE('',*,*,#247,.F.);
#140=ORIENTED_EDGE('',*,*,#248,.F.);
#141=ORIENTED_EDGE('',*,*,#249,.T.);
#142=ORIENTED_EDGE('',*,*,#250,.T.);
#143=ORIENTED_EDGE('',*,*,#249,.F.);
#144=ORIENTED_EDGE('',*,*,#251,.F.);
#145=ORIENTED_EDGE('',*,*,#252,.T.);
#146=ORIENTED_EDGE('',*,*,#253,.T.);
#147=ORIENTED_EDGE('',*,*,#252,.F.);
#148=ORIENTED_EDGE('',*,*,#254,.F.);
#149=ORIENTED_EDGE('',*,*,#255,.T.);
#150=ORIENTED_EDGE('',*,*,#256,.F.);
#151=ORIENTED_EDGE('',*,*,#257,.F.);
#152=ORIENTED_EDGE('',*,*,#258,.T.);
#153=ORIENTED_EDGE('',*,*,#259,.T.);
#154=ORIENTED_EDGE('',*,*,#260,.F.);
#155=ORIENTED_EDGE('',*,*,#259,.F.);
#156=ORIENTED_EDGE('',*,*,#261,.T.);
#157=ORIENTED_EDGE('',*,*,#262,.T.);
#158=ORIENTED_EDGE('',*,*,#263,.F.);
#159=ORIENTED_EDGE('',*,*,#262,.F.);
#160=ORIENTED_EDGE('',*,*,#264,.T.);
#161=ORIENTED_EDGE('',*,*,#265,.T.);
#162=ORIENTED_EDGE('',*,*,#266,.F.);
#163=ORIENTED_EDGE('',*,*,#265,.F.);
#164=ORIENTED_EDGE('',*,*,#267,.T.);
#165=ORIENTED_EDGE('',*,*,#268,.T.);
#166=ORIENTED_EDGE('',*,*,#269,.F.);
#167=ORIENTED_EDGE('',*,*,#268,.F.);
#168=ORIENTED_EDGE('',*,*,#270,.T.);
#169=ORIENTED_EDGE('',*,*,#271,.T.);
#170=ORIENTED_EDGE('',*,*,#272,.F.);
#171=ORIENTED_EDGE('',*,*,#271,.F.);
#172=ORIENTED_EDGE('',*,*,#273,.T.);
#173=ORIENTED_EDGE('',*,*,#274,.T.);
#174=ORIENTED_EDGE('',*,*,#275,.F.);
#175=ORIENTED_EDGE('',*,*,#274,.F.);
#176=ORIENTED_EDGE('',*,*,#276,.T.);
#177=ORIENTED_EDGE('',*,*,#277,.T.);
#178=ORIENTED_EDGE('',*,*,#278,.T.);
#179=ORIENTED_EDGE('',*,*,#279,.F.);
#180=ORIENTED_EDGE('',*,*,#280,.F.);
#181=ORIENTED_EDGE('',*,*,#281,.T.);
#182=ORIENTED_EDGE('',*,*,#282,.F.);
#183=ORIENTED_EDGE('',*,*,#277,.F.);
#184=ORIENTED_EDGE('',*,*,#283,.T.);
#185=ORIENTED_EDGE('',*,*,#257,.T.);
#186=ORIENTED_EDGE('',*,*,#284,.T.);
#187=ORIENTED_EDGE('',*,*,#255,.F.);
#188=ORIENTED_EDGE('',*,*,#285,.F.);
#189=ORIENTED_EDGE('',*,*,#247,.T.);
#190=ORIENTED_EDGE('',*,*,#258,.F.);
#191=ORIENTED_EDGE('',*,*,#283,.F.);
#192=ORIENTED_EDGE('',*,*,#276,.F.);
#193=ORIENTED_EDGE('',*,*,#273,.F.);
#194=ORIENTED_EDGE('',*,*,#270,.F.);
#195=ORIENTED_EDGE('',*,*,#267,.F.);
#196=ORIENTED_EDGE('',*,*,#264,.F.);
#197=ORIENTED_EDGE('',*,*,#261,.F.);
#198=ORIENTED_EDGE('',*,*,#281,.F.);
#199=ORIENTED_EDGE('',*,*,#278,.F.);
#200=ORIENTED_EDGE('',*,*,#248,.T.);
#201=ORIENTED_EDGE('',*,*,#285,.T.);
#202=ORIENTED_EDGE('',*,*,#254,.T.);
#203=ORIENTED_EDGE('',*,*,#251,.T.);
#204=ORIENTED_EDGE('',*,*,#282,.T.);
#205=ORIENTED_EDGE('',*,*,#256,.T.);
#206=ORIENTED_EDGE('',*,*,#260,.T.);
#207=ORIENTED_EDGE('',*,*,#263,.T.);
#208=ORIENTED_EDGE('',*,*,#266,.T.);
#209=ORIENTED_EDGE('',*,*,#269,.T.);
#210=ORIENTED_EDGE('',*,*,#272,.T.);
#211=ORIENTED_EDGE('',*,*,#275,.T.);
#212=ORIENTED_EDGE('',*,*,#280,.T.);
#213=ORIENTED_EDGE('',*,*,#279,.T.);
#214=ORIENTED_EDGE('',*,*,#246,.F.);
#215=ORIENTED_EDGE('',*,*,#250,.F.);
#216=ORIENTED_EDGE('',*,*,#253,.F.);
#217=ORIENTED_EDGE('',*,*,#284,.F.);
#218=VERTEX_POINT('',#459);
#219=VERTEX_POINT('',#460);
#220=VERTEX_POINT('',#462);
#221=VERTEX_POINT('',#464);
#222=VERTEX_POINT('',#468);
#223=VERTEX_POINT('',#470);
#224=VERTEX_POINT('',#474);
#225=VERTEX_POINT('',#476);
#226=VERTEX_POINT('',#480);
#227=VERTEX_POINT('',#481);
#228=VERTEX_POINT('',#483);
#229=VERTEX_POINT('',#485);
#230=VERTEX_POINT('',#489);
#231=VERTEX_POINT('',#491);
#232=VERTEX_POINT('',#495);
#233=VERTEX_POINT('',#497);
#234=VERTEX_POINT('',#501);
#235=VERTEX_POINT('',#503);
#236=VERTEX_POINT('',#507);
#237=VERTEX_POINT('',#509);
#238=VERTEX_POINT('',#513);
#239=VERTEX_POINT('',#515);
#240=VERTEX_POINT('',#519);
#241=VERTEX_POINT('',#521);
#242=VERTEX_POINT('',#525);
#243=VERTEX_POINT('',#527);
#244=VERTEX_POINT('',#530);
#245=VERTEX_POINT('',#532);
#246=EDGE_CURVE('',#218,#219,#286,.T.);
#247=EDGE_CURVE('',#220,#219,#287,.T.);
#248=EDGE_CURVE('',#221,#220,#288,.T.);
#249=EDGE_CURVE('',#221,#218,#289,.T.);
#250=EDGE_CURVE('',#222,#218,#62,.T.);
#251=EDGE_CURVE('',#223,#221,#63,.T.);
#252=EDGE_CURVE('',#223,#222,#290,.T.);
#253=EDGE_CURVE('',#224,#222,#291,.T.);
#254=EDGE_CURVE('',#225,#223,#292,.T.);
#255=EDGE_CURVE('',#225,#224,#293,.T.);
#256=EDGE_CURVE('',#226,#227,#64,.T.);
#257=EDGE_CURVE('',#228,#226,#294,.T.);
#258=EDGE_CURVE('',#228,#229,#65,.T.);
#259=EDGE_CURVE('',#229,#227,#295,.T.);
#260=EDGE_CURVE('',#227,#230,#296,.T.);
#261=EDGE_CURVE('',#229,#231,#297,.T.);
#262=EDGE_CURVE('',#231,#230,#298,.T.);
#263=EDGE_CURVE('',#230,#232,#66,.T.);
#264=EDGE_CURVE('',#231,#233,#67,.T.);
#265=EDGE_CURVE('',#233,#232,#299,.T.);
#266=EDGE_CURVE('',#232,#234,#300,.T.);
#267=EDGE_CURVE('',#233,#235,#301,.T.);
#268=EDGE_CURVE('',#235,#234,#302,.T.);
#269=EDGE_CURVE('',#234,#236,#68,.T.);
#270=EDGE_CURVE('',#235,#237,#69,.T.);
#271=EDGE_CURVE('',#237,#236,#303,.T.);
#272=EDGE_CURVE('',#236,#238,#304,.T.);
#273=EDGE_CURVE('',#237,#239,#305,.T.);
#274=EDGE_CURVE('',#239,#238,#306,.T.);
#275=EDGE_CURVE('',#238,#240,#70,.T.);
#276=EDGE_CURVE('',#239,#241,#71,.T.);
#277=EDGE_CURVE('',#241,#240,#307,.T.);
#278=EDGE_CURVE('',#242,#242,#72,.T.);
#279=EDGE_CURVE('',#243,#243,#73,.T.);
#280=EDGE_CURVE('',#244,#244,#74,.T.);
#281=EDGE_CURVE('',#245,#245,#75,.T.);
#282=EDGE_CURVE('',#240,#226,#308,.T.);
#283=EDGE_CURVE('',#241,#228,#309,.T.);
#284=EDGE_CURVE('',#219,#224,#76,.T.);
#285=EDGE_CURVE('',#220,#225,#77,.T.);
#286=LINE('',#458,#310);
#287=LINE('',#461,#311);
#288=LINE('',#463,#312);
#289=LINE('',#465,#313);
#290=LINE('',#471,#314);
#291=LINE('',#473,#315);
#292=LINE('',#475,#316);
#293=LINE('',#477,#317);
#294=LINE('',#482,#318);
#295=LINE('',#486,#319);
#296=LINE('',#488,#320);
#297=LINE('',#490,#321);
#298=LINE('',#492,#322);
#299=LINE('',#498,#323);
#300=LINE('',#500,#324);
#301=LINE('',#502,#325);
#302=LINE('',#504,#326);
#303=LINE('',#510,#327);
#304=LINE('',#512,#328);
#305=LINE('',#514,#329);
#306=LINE('',#516,#330);
#307=LINE('',#522,#331);
#308=LINE('',#534,#332);
#309=LINE('',#535,#333);
#310=VECTOR('',#369,1.);
#311=VECTOR('',#370,1.);
#312=VECTOR('',#371,1.);
#313=VECTOR('',#372,1.);
#314=VECTOR('',#379,1.);
#315=VECTOR('',#382,1.);
#316=VECTOR('',#383,1.);
#317=VECTOR('',#384,1.);
#318=VECTOR('',#389,1.);
#319=VECTOR('',#392,1.);
#320=VECTOR('',#395,1.);
#321=VECTOR('',#396,1.);
#322=VECTOR('',#397,1.);
#323=VECTOR('',#404,1.);
#324=VECTOR('',#407,1.);
#325=VECTOR('',#408,1.);
#326=VECTOR('',#409,1.);
#327=VECTOR('',#416,1.);
#328=VECTOR('',#419,1.);
#329=VECTOR('',#420,1.);
#330=VECTOR('',#421,1.);
#331=VECTOR('',#428,1.);
#332=VECTOR('',#443,1.);
#333=VECTOR('',#444,1.);
#334=AXIS2_PLACEMENT_3D('',#457,#367,#368);
#335=AXIS2_PLACEMENT_3D('',#466,#373,#374);
#336=AXIS2_PLACEMENT_3D('',#467,#375,#376);
#337=AXIS2_PLACEMENT_3D('',#469,#377,#378);
#338=AXIS2_PLACEMENT_3D('',#472,#380,#381);
#339=AXIS2_PLACEMENT_3D('',#478,#385,#386);
#340=AXIS2_PLACEMENT_3D('',#479,#387,#388);
#341=AXIS2_PLACEMENT_3D('',#484,#390,#391);
#342=AXIS2_PLACEMENT_3D('',#487,#393,#394);
#343=AXIS2_PLACEMENT_3D('',#493,#398,#399);
#344=AXIS2_PLACEMENT_3D('',#494,#400,#401);
#345=AXIS2_PLACEMENT_3D('',#496,#402,#403);
#346=AXIS2_PLACEMENT_3D('',#499,#405,#406);
#347=AXIS2_PLACEMENT_3D('',#505,#410,#411);
#348=AXIS2_PLACEMENT_3D('',#506,#412,#413);
#349=AXIS2_PLACEMENT_3D('',#508,#414,#415);
#350=AXIS2_PLACEMENT_3D('',#511,#417,#418);
#351=AXIS2_PLACEMENT_3D('',#517,#422,#423);
#352=AXIS2_PLACEMENT_3D('',#518,#424,#425);
#353=AXIS2_PLACEMENT_3D('',#520,#426,#427);
#354=AXIS2_PLACEMENT_3D('',#523,#429,#430);
#355=AXIS2_PLACEMENT_3D('',#524,#431,#432);
#356=AXIS2_PLACEMENT_3D('',#526,#433,#434);
#357=AXIS2_PLACEMENT_3D('',#528,#435,#436);
#358=AXIS2_PLACEMENT_3D('',#529,#437,#438);
#359=AXIS2_PLACEMENT_3D('',#531,#439,#440);
#360=AXIS2_PLACEMENT_3D('',#533,#441,#442);
#361=AXIS2_PLACEMENT_3D('',#536,#445,#446);
#362=AXIS2_PLACEMENT_3D('',#537,#447,#448);
#363=AXIS2_PLACEMENT_3D('',#538,#449,#450);
#364=AXIS2_PLACEMENT_3D('',#539,#451,#452);
#365=AXIS2_PLACEMENT_3D('',#540,#453,#454);
#366=AXIS2_PLACEMENT_3D('',#541,#455,#456);
#367=DIRECTION('',(0.,0.,1.));
#368=DIRECTION('',(1.,0.,0.));
#369=DIRECTION('',(0.,1.,0.));
#370=DIRECTION('',(0.,0.,-1.));
#371=DIRECTION('',(0.,1.,0.));
#372=DIRECTION('',(0.,0.,-1.));
#373=DIRECTION('',(-1.,0.,0.));
#374=DIRECTION('',(0.,0.,1.));
#375=DIRECTION('',(0.,0.,-1.));
#376=DIRECTION('',(1.,0.,0.));
#377=DIRECTION('',(0.,0.,-1.));
#378=DIRECTION('',(1.,0.,0.));
#379=DIRECTION('',(0.,0.,-1.));
#380=DIRECTION('',(0.,0.,-1.));
#381=DIRECTION('',(-1.,0.,0.));
#382=DIRECTION('',(0.,-1.,0.));
#383=DIRECTION('',(0.,-1.,0.));
#384=DIRECTION('',(0.,0.,-1.));
#385=DIRECTION('',(1.,0.,0.));
#386=DIRECTION('',(0.,0.,-1.));
#387=DIRECTION('',(0.,0.,-1.));
#388=DIRECTION('',(1.,0.,0.));
#389=DIRECTION('',(0.,0.,-1.));
#390=DIRECTION('',(0.,0.,-1.));
#391=DIRECTION('',(1.,0.,0.));
#392=DIRECTION('',(0.,0.,-1.));
#393=DIRECTION('',(0.,0.,-1.));
#394=DIRECTION('',(-1.,0.,0.));
#395=DIRECTION('',(0.987018552900507,-0.160606277057247,0.));
#396=DIRECTION('',(0.987018552900507,-0.160606277057247,0.));
#397=DIRECTION('',(0.,0.,-1.));
#398=DIRECTION('',(0.160606277057247,0.987018552900507,0.));
#399=DIRECTION('',(-0.987018552900507,0.160606277057247,0.));
#400=DIRECTION('',(0.,0.,-1.));
#401=DIRECTION('',(1.,0.,0.));
#402=DIRECTION('',(0.,0.,-1.));
#403=DIRECTION('',(1.,0.,0.));
#404=DIRECTION('',(0.,0.,-1.));
#405=DIRECTION('',(0.,0.,-1.));
#406=DIRECTION('',(-1.,0.,0.));
#407=DIRECTION('',(-0.987018552900507,-0.160606277057247,0.));
#408=DIRECTION('',(-0.987018552900507,-0.160606277057247,0.));
#409=DIRECTION('',(0.,0.,-1.));
#410=DIRECTION('',(0.160606277057247,-0.987018552900507,0.));
#411=DIRECTION('',(0.987018552900507,0.160606277057247,0.));
#412=DIRECTION('',(0.,0.,-1.));
#413=DIRECTION('',(1.,0.,0.));
#414=DIRECTION('',(0.,0.,-1.));
#415=DIRECTION('',(1.,0.,0.));
#416=DIRECTION('',(0.,0.,-1.));
#417=DIRECTION('',(0.,0.,-1.));
#418=DIRECTION('',(-1.,0.,0.));
#419=DIRECTION('',(-0.987018552900507,0.160606277057247,0.));
#420=DIRECTION('',(-0.987018552900507,0.160606277057247,0.));
#421=DIRECTION('',(0.,0.,-1.));
#422=DIRECTION('',(-0.160606277057247,-0.987018552900507,0.));
#423=DIRECTION('',(0.987018552900507,-0.160606277057247,0.));
#424=DIRECTION('',(0.,0.,-1.));
#425=DIRECTION('',(1.,0.,0.));
#426=DIRECTION('',(0.,0.,-1.));
#427=DIRECTION('',(1.,0.,0.));
#428=DIRECTION('',(0.,0.,-1.));
#429=DIRECTION('',(0.,0.,-1.));
#430=DIRECTION('',(-1.,0.,0.));
#431=DIRECTION('',(0.,0.,1.));
#432=DIRECTION('',(1.,0.,0.));
#433=DIRECTION('',(0.,0.,1.));
#434=DIRECTION('',(1.,0.,0.));
#435=DIRECTION('',(0.,0.,-1.));
#436=DIRECTION('',(-1.,0.,0.));
#437=DIRECTION('',(0.,0.,1.));
#438=DIRECTION('',(1.,0.,0.));
#439=DIRECTION('',(0.,0.,1.));
#440=DIRECTION('',(1.,0.,0.));
#441=DIRECTION('',(0.,0.,-1.));
#442=DIRECTION('',(-1.,0.,0.));
#443=DIRECTION('',(0.987018552900507,0.160606277057247,0.));
#444=DIRECTION('',(0.987018552900507,0.160606277057247,0.));
#445=DIRECTION('',(-0.160606277057247,0.987018552900507,0.));
#446=DIRECTION('',(-0.987018552900507,-0.160606277057247,0.));
#447=DIRECTION('',(0.,0.,-1.));
#448=DIRECTION('',(1.,0.,0.));
#449=DIRECTION('',(0.,0.,-1.));
#450=DIRECTION('',(1.,0.,0.));
#451=DIRECTION('',(0.,0.,-1.));
#452=DIRECTION('',(-1.,0.,0.));
#453=DIRECTION('',(0.,0.,-1.));
#454=DIRECTION('',(-1.,0.,0.));
#455=DIRECTION('',(0.,0.,-1.));
#456=DIRECTION('',(-1.,0.,0.));
#457=CARTESIAN_POINT('',(0.,0.,0.));
#458=CARTESIAN_POINT('',(27.923172734954,89.065454967269,0.));
#459=CARTESIAN_POINT('',(27.923172734954,89.065454967269,0.));
#460=CARTESIAN_POINT('',(27.923172734954,96.065454967269,0.));
#461=CARTESIAN_POINT('',(27.923172734954,96.065454967269,15.));
#462=CARTESIAN_POINT('',(27.923172734954,96.065454967269,15.));
#463=CARTESIAN_POINT('',(27.923172734954,89.065454967269,15.));
#464=CARTESIAN_POINT('',(27.923172734954,89.065454967269,15.));
#465=CARTESIAN_POINT('',(27.923172734954,89.065454967269,15.));
#466=CARTESIAN_POINT('',(27.923172734954,89.065454967269,15.));
#467=CARTESIAN_POINT('',(43.923172734954,89.065454967269,0.));
#468=CARTESIAN_POINT('',(59.923172734954,89.065454967269,0.));
#469=CARTESIAN_POINT('',(43.923172734954,89.065454967269,15.));
#470=CARTESIAN_POINT('',(59.923172734954,89.065454967269,15.));
#471=CARTESIAN_POINT('',(59.923172734954,89.065454967269,15.));
#472=CARTESIAN_POINT('',(43.923172734954,89.065454967269,15.));
#473=CARTESIAN_POINT('',(59.923172734954,96.065454967269,0.));
#474=CARTESIAN_POINT('',(59.923172734954,96.065454967269,0.));
#475=CARTESIAN_POINT('',(59.923172734954,96.065454967269,15.));
#476=CARTESIAN_POINT('',(59.923172734954,96.065454967269,15.));
#477=CARTESIAN_POINT('',(59.923172734954,96.065454967269,15.));
#478=CARTESIAN_POINT('',(59.923172734954,96.065454967269,15.));
#479=CARTESIAN_POINT('',(43.923172734954,96.065454967269,0.));
#480=CARTESIAN_POINT('',(37.6595279297216,134.559178530389,0.));
#481=CARTESIAN_POINT('',(50.1868175401864,134.559178530389,0.));
#482=CARTESIAN_POINT('',(37.6595279297216,134.559178530389,15.));
#483=CARTESIAN_POINT('',(37.6595279297216,134.559178530389,15.));
#484=CARTESIAN_POINT('',(43.923172734954,96.065454967269,15.));
#485=CARTESIAN_POINT('',(50.1868175401864,134.559178530389,15.));
#486=CARTESIAN_POINT('',(50.1868175401864,134.559178530389,15.));
#487=CARTESIAN_POINT('',(43.923172734954,96.065454967269,15.));
#488=CARTESIAN_POINT('',(50.186817540187,134.559178530389,0.));
#489=CARTESIAN_POINT('',(138.420148492557,120.201974448483,0.));
#490=CARTESIAN_POINT('',(50.186817540187,134.559178530389,15.));
#491=CARTESIAN_POINT('',(138.420148492557,120.201974448483,15.));
#492=CARTESIAN_POINT('',(138.420148492557,120.201974448483,15.));
#493=CARTESIAN_POINT('',(50.186817540187,134.559178530389,15.));
#494=CARTESIAN_POINT('',(133.923172734954,92.565454967269,0.));
#495=CARTESIAN_POINT('',(138.420148492557,64.9289354860548,0.));
#496=CARTESIAN_POINT('',(133.923172734954,92.565454967269,15.));
#497=CARTESIAN_POINT('',(138.420148492557,64.9289354860548,15.));
#498=CARTESIAN_POINT('',(138.420148492557,64.9289354860548,15.));
#499=CARTESIAN_POINT('',(133.923172734954,92.565454967269,15.));
#500=CARTESIAN_POINT('',(138.420148492557,64.928935486055,0.));
#501=CARTESIAN_POINT('',(50.186817540187,50.571731404149,0.));
#502=CARTESIAN_POINT('',(138.420148492557,64.928935486055,15.));
#503=CARTESIAN_POINT('',(50.186817540187,50.571731404149,15.));
#504=CARTESIAN_POINT('',(50.186817540187,50.571731404149,15.));
#505=CARTESIAN_POINT('',(138.420148492557,64.928935486055,15.));
#506=CARTESIAN_POINT('',(43.923172734954,89.065454967269,0.));
#507=CARTESIAN_POINT('',(37.6595279297216,50.5717314041492,0.));
#508=CARTESIAN_POINT('',(43.923172734954,89.065454967269,15.));
#509=CARTESIAN_POINT('',(37.6595279297216,50.5717314041492,15.));
#510=CARTESIAN_POINT('',(37.6595279297216,50.5717314041492,15.));
#511=CARTESIAN_POINT('',(43.923172734954,89.065454967269,15.));
#512=CARTESIAN_POINT('',(37.659527929722,50.571731404149,0.));
#513=CARTESIAN_POINT('',(-50.573803022648,64.928935486055,0.));
#514=CARTESIAN_POINT('',(37.659527929722,50.571731404149,15.));
#515=CARTESIAN_POINT('',(-50.573803022648,64.928935486055,15.));
#516=CARTESIAN_POINT('',(-50.573803022648,64.928935486055,15.));
#517=CARTESIAN_POINT('',(37.659527929722,50.571731404149,15.));
#518=CARTESIAN_POINT('',(-46.076827265046,92.565454967269,0.));
#519=CARTESIAN_POINT('',(-50.5738030226488,120.201974448483,0.));
#520=CARTESIAN_POINT('',(-46.076827265046,92.565454967269,15.));
#521=CARTESIAN_POINT('',(-50.5738030226488,120.201974448483,15.));
#522=CARTESIAN_POINT('',(-50.5738030226488,120.201974448483,15.));
#523=CARTESIAN_POINT('',(-46.076827265046,92.565454967269,15.));
#524=CARTESIAN_POINT('',(-46.076827265046,92.565454967269,15.));
#525=CARTESIAN_POINT('',(-33.576827265046,92.565454967269,15.));
#526=CARTESIAN_POINT('',(-46.076827265046,92.565454967269,0.));
#527=CARTESIAN_POINT('',(-33.576827265046,92.565454967269,0.));
#528=CARTESIAN_POINT('',(-46.076827265046,92.565454967269,15.));
#529=CARTESIAN_POINT('',(133.923172734954,92.565454967269,0.));
#530=CARTESIAN_POINT('',(146.423172734954,92.565454967269,0.));
#531=CARTESIAN_POINT('',(133.923172734954,92.565454967269,15.));
#532=CARTESIAN_POINT('',(146.423172734954,92.565454967269,15.));
#533=CARTESIAN_POINT('',(133.923172734954,92.565454967269,15.));
#534=CARTESIAN_POINT('',(-50.573803022648,120.201974448483,0.));
#535=CARTESIAN_POINT('',(-50.573803022648,120.201974448483,15.));
#536=CARTESIAN_POINT('',(-50.573803022648,120.201974448483,15.));
#537=CARTESIAN_POINT('',(43.923172734954,96.065454967269,0.));
#538=CARTESIAN_POINT('',(43.923172734954,96.065454967269,15.));
#539=CARTESIAN_POINT('',(43.923172734954,96.065454967269,15.));
#540=CARTESIAN_POINT('',(43.923172734954,96.065454967269,15.));
#541=CARTESIAN_POINT('',(43.923172734954,96.065454967269,0.));
#542=MECHANICAL_DESIGN_GEOMETRIC_PRESENTATION_REPRESENTATION('',(#32),#543);
#543=(
GEOMETRIC_REPRESENTATION_CONTEXT(3)
GLOBAL_UNCERTAINTY_ASSIGNED_CONTEXT((#544))
GLOBAL_UNIT_ASSIGNED_CONTEXT((#550,#546,#545))
REPRESENTATION_CONTEXT('AGWP 10 Kundenmodell','TOP_LEVEL_ASSEMBLY_PART')
);
#544=UNCERTAINTY_MEASURE_WITH_UNIT(LENGTH_MEASURE(2.E-005),#550,
'DISTANCE_ACCURACY_VALUE','Maximum Tolerance applied to model');
#545=(
NAMED_UNIT(*)
SI_UNIT($,.STERADIAN.)
SOLID_ANGLE_UNIT()
);
#546=(
CONVERSION_BASED_UNIT('DEGREE',#548)
NAMED_UNIT(#547)
PLANE_ANGLE_UNIT()
);
#547=DIMENSIONAL_EXPONENTS(0.,0.,0.,0.,0.,0.,0.);
#548=PLANE_ANGLE_MEASURE_WITH_UNIT(PLANE_ANGLE_MEASURE(0.0174532925),#549);
#549=(
NAMED_UNIT(*)
PLANE_ANGLE_UNIT()
SI_UNIT($,.RADIAN.)
);
#550=(
LENGTH_UNIT()
NAMED_UNIT(*)
SI_UNIT(.MILLI.,.METRE.)
);
ENDSEC;
END-ISO-10303-21;
